  0
SECTION
  2
HEADER
  9
$ACADVER
  1
AC1015
  9
$ACADMAINTVER
 70
     6
  9
$DWGCODEPAGE
  3
ANSI_1254
  9
$INSBASE
 10
0.0
 20
0.0
 30
0.0
  9
$EXTMIN
 10
0.0
 20
0.0
 30
0.0
  9
$EXTMAX
 10
279.4
 20
215.9
 30
0.0
  9
$LIMMIN
 10
0.0
 20
0.0
  9
$LIMMAX
 10
279.4
 20
215.9
  9
$ORTHOMODE
 70
     0
  9
$REGENMODE
 70
     1
  9
$FILLMODE
 70
     1
  9
$QTEXTMODE
 70
     0
  9
$MIRRTEXT
 70
     1
  9
$LTSCALE
 40
1.0
  9
$ATTMODE
 70
     1
  9
$TEXTSIZE
 40
3.5
  9
$TRACEWID
 40
1.0
  9
$TEXTSTYLE
  7
Standard
  9
$CLAYER
  8
0
  9
$CELTYPE
  6
ByLayer
  9
$CECOLOR
 62
   256
  9
$CELTSCALE
 40
1.0
  9
$DISPSILH
 70
     0
  9
$DIMSCALE
 40
1.0
  9
$DIMASZ
 40
3.5
  9
$DIMEXO
 40
1.0
  9
$DIMDLI
 40
3.75
  9
$DIMRND
 40
0.0
  9
$DIMDLE
 40
0.0
  9
$DIMEXE
 40
1.0
  9
$DIMTP
 40
0.0
  9
$DIMTM
 40
0.0
  9
$DIMTXT
 40
3.5
  9
$DIMCEN
 40
2.5
  9
$DIMTSZ
 40
0.0
  9
$DIMTOL
 70
     0
  9
$DIMLIM
 70
     0
  9
$DIMTIH
 70
     1
  9
$DIMTOH
 70
     1
  9
$DIMSE1
 70
     0
  9
$DIMSE2
 70
     0
  9
$DIMTAD
 70
     1
  9
$DIMZIN
 70
     0
  9
$DIMBLK
  1

  9
$DIMASO
 70
     1
  9
$DIMSHO
 70
     1
  9
$DIMPOST
  1

  9
$DIMAPOST
  1

  9
$DIMALT
 70
     0
  9
$DIMALTD
 70
     3
  9
$DIMALTF
 40
0.0393700787
  9
$DIMLFAC
 40
1.0
  9
$DIMTOFL
 70
     1
  9
$DIMTVP
 40
0.0
  9
$DIMTIX
 70
     0
  9
$DIMSOXD
 70
     0
  9
$DIMSAH
 70
     0
  9
$DIMBLK1
  1

  9
$DIMBLK2
  1

  9
$DIMSTYLE
  2
ISO-25
  9
$DIMCLRD
 70
     0
  9
$DIMCLRE
 70
     0
  9
$DIMCLRT
 70
     0
  9
$DIMTFAC
 40
1.0
  9
$DIMGAP
 40
1.524
  9
$DIMJUST
 70
     0
  9
$DIMSD1
 70
     0
  9
$DIMSD2
 70
     0
  9
$DIMTOLJ
 70
     0
  9
$DIMTZIN
 70
     0
  9
$DIMALTZ
 70
     0
  9
$DIMALTTZ
 70
     0
  9
$DIMUPT
 70
     0
  9
$DIMDEC
 70
     2
  9
$DIMTDEC
 70
     2
  9
$DIMALTU
 70
     2
  9
$DIMALTTD
 70
     3
  9
$DIMTXSTY
  7
Standard
  9
$DIMAUNIT
 70
     0
  9
$DIMADEC
 70
     2
  9
$DIMALTRND
 40
0.0
  9
$DIMAZIN
 70
     0
  9
$DIMDSEP
 70
    44
  9
$DIMATFIT
 70
     3
  9
$DIMFRAC
 70
     0
  9
$DIMLDRBLK
  1

  9
$DIMLUNIT
 70
     2
  9
$DIMLWD
 70
    -2
  9
$DIMLWE
 70
    -2
  9
$DIMTMOVE
 70
     0
  9
$LUNITS
 70
     2
  9
$LUPREC
 70
     2
  9
$SKETCHINC
 40
1.0
  9
$FILLETRAD
 40
10.0
  9
$AUNITS
 70
     0
  9
$AUPREC
 70
     2
  9
$MENU
  1
.
  9
$ELEVATION
 40
0.0
  9
$PELEVATION
 40
0.0
  9
$THICKNESS
 40
0.0
  9
$LIMCHECK
 70
     0
  9
$CHAMFERA
 40
0.0
  9
$CHAMFERB
 40
0.0
  9
$CHAMFERC
 40
0.0
  9
$CHAMFERD
 40
0.0
  9
$SKPOLY
 70
     0
  9
$TDCREATE
 40
2458985.682354745
  9
$TDUCREATE
 40
2458985.557354745
  9
$TDUPDATE
 40
2458985.682355127
  9
$TDUUPDATE
 40
2458985.557355127
  9
$TDINDWG
 40
0.0000000116
  9
$TDUSRTIMER
 40
0.0000000116
  9
$USRTIMER
 70
     1
  9
$ANGBASE
 50
0.0
  9
$ANGDIR
 70
     0
  9
$PDMODE
 70
     0
  9
$PDSIZE
 40
-1.0
  9
$PLINEWID
 40
0.0
  9
$SPLFRAME
 70
     0
  9
$SPLINETYPE
 70
     6
  9
$SPLINESEGS
 70
     8
  9
$HANDSEED
  5
CB
  9
$SURFTAB1
 70
     6
  9
$SURFTAB2
 70
     6
  9
$SURFTYPE
 70
     6
  9
$SURFU
 70
     6
  9
$SURFV
 70
     6
  9
$UCSBASE
  2

  9
$UCSNAME
  2

  9
$UCSORG
 10
0.0
 20
0.0
 30
0.0
  9
$UCSXDIR
 10
1.0
 20
0.0
 30
0.0
  9
$UCSYDIR
 10
0.0
 20
1.0
 30
0.0
  9
$UCSORTHOREF
  2

  9
$UCSORTHOVIEW
 70
     0
  9
$UCSORGTOP
 10
0.0
 20
0.0
 30
0.0
  9
$UCSORGBOTTOM
 10
0.0
 20
0.0
 30
0.0
  9
$UCSORGLEFT
 10
0.0
 20
0.0
 30
0.0
  9
$UCSORGRIGHT
 10
0.0
 20
0.0
 30
0.0
  9
$UCSORGFRONT
 10
0.0
 20
0.0
 30
0.0
  9
$UCSORGBACK
 10
0.0
 20
0.0
 30
0.0
  9
$PUCSBASE
  2

  9
$PUCSNAME
  2

  9
$PUCSORG
 10
0.0
 20
0.0
 30
0.0
  9
$PUCSXDIR
 10
1.0
 20
0.0
 30
0.0
  9
$PUCSYDIR
 10
0.0
 20
1.0
 30
0.0
  9
$PUCSORTHOREF
  2

  9
$PUCSORTHOVIEW
 70
     0
  9
$PUCSORGTOP
 10
0.0
 20
0.0
 30
0.0
  9
$PUCSORGBOTTOM
 10
0.0
 20
0.0
 30
0.0
  9
$PUCSORGLEFT
 10
0.0
 20
0.0
 30
0.0
  9
$PUCSORGRIGHT
 10
0.0
 20
0.0
 30
0.0
  9
$PUCSORGFRONT
 10
0.0
 20
0.0
 30
0.0
  9
$PUCSORGBACK
 10
0.0
 20
0.0
 30
0.0
  9
$USERI1
 70
     0
  9
$USERI2
 70
     0
  9
$USERI3
 70
     0
  9
$USERI4
 70
     0
  9
$USERI5
 70
     0
  9
$USERR1
 40
0.0
  9
$USERR2
 40
0.0
  9
$USERR3
 40
0.0
  9
$USERR4
 40
0.0
  9
$USERR5
 40
0.0
  9
$WORLDVIEW
 70
     1
  9
$SHADEDGE
 70
     3
  9
$SHADEDIF
 70
    70
  9
$TILEMODE
 70
     1
  9
$MAXACTVP
 70
    64
  9
$PINSBASE
 10
0.0
 20
0.0
 30
0.0
  9
$PLIMCHECK
 70
     0
  9
$PEXTMIN
 10
1.0000000000E+20
 20
1.0000000000E+20
 30
1.0000000000E+20
  9
$PEXTMAX
 10
-1.0000000000E+20
 20
-1.0000000000E+20
 30
-1.0000000000E+20
  9
$PLIMMIN
 10
0.0
 20
0.0
  9
$PLIMMAX
 10
420.0
 20
297.0
  9
$UNITMODE
 70
     0
  9
$VISRETAIN
 70
     1
  9
$PLINEGEN
 70
     0
  9
$PSLTSCALE
 70
     1
  9
$TREEDEPTH
 70
  3020
  9
$CMLSTYLE
  2
Standard
  9
$CMLJUST
 70
     0
  9
$CMLSCALE
 40
20.0
  9
$PROXYGRAPHICS
 70
     1
  9
$MEASUREMENT
 70
     1
  9
$CELWEIGHT
370
    -1
  9
$ENDCAPS
280
     0
  9
$JOINSTYLE
280
     0
  9
$LWDISPLAY
290
     1
  9
$INSUNITS
 70
     4
  9
$HYPERLINKBASE
  1

  9
$STYLESHEET
  1

  9
$XEDIT
290
     1
  9
$CEPSNTYPE
380
     0
  9
$PSTYLEMODE
290
     1
  9
$FINGERPRINTGUID
  2
{4af08f7b-4d7a-41b5-87ce-4dd9807202d0}
  9
$VERSIONGUID
  2
{FAEB1C32-E019-11D5-929B-00C0DF256EC4}
  9
$EXTNAMES
290
     1
  9
$PSVPSCALE
 40
0.0
  9
$OLESTARTUP
290
     0
  0
ENDSEC
  0
SECTION
  2
CLASSES
  0
CLASS
  1
ACDBDICTIONARYWDFLT
  2
AcDbDictionaryWithDefault
  3
ObjectDBX Classes
 90
        0
280
     0
281
     0
  0
CLASS
  1
VISUALSTYLE
  2
AcDbVisualStyle
  3
ObjectDBX Classes
 90
     4095
280
     0
281
     0
  0
CLASS
  1
MATERIAL
  2
AcDbMaterial
  3
ObjectDBX Classes
 90
     1153
280
     0
281
     0
  0
CLASS
  1
SCALE
  2
AcDbScale
  3
ObjectDBX Classes
 90
     1153
280
     0
281
     0
  0
CLASS
  1
TABLESTYLE
  2
AcDbTableStyle
  3
ObjectDBX Classes
 90
     4095
280
     0
281
     0
  0
CLASS
  1
MLEADERSTYLE
  2
AcDbMLeaderStyle
  3
ACDB_MLEADERSTYLE_CLASS
 90
     4095
280
     0
281
     0
  0
CLASS
  1
SUN
  2
AcDbSun
  3
SCENEOE
 90
     1153
280
     0
281
     0
  0
CLASS
  1
ACDBPLACEHOLDER
  2
AcDbPlaceHolder
  3
ObjectDBX Classes
 90
        0
280
     0
281
     0
  0
CLASS
  1
LAYOUT
  2
AcDbLayout
  3
ObjectDBX Classes
 90
        0
280
     0
281
     0
  0
ENDSEC
  0
SECTION
  2
TABLES
  0
TABLE
  2
VPORT
  5
8
330
0
100
AcDbSymbolTable
 70
     1
  0
VPORT
  5
29
330
8
100
AcDbSymbolTableRecord
100
AcDbViewportTableRecord
  2
*Active
 70
     0
 10
0.0
 20
0.0
 11
1.0
 21
1.0
 12
139.7
 22
107.95
 13
0.0
 23
0.0
 14
10.0
 24
10.0
 15
10.0
 25
10.0
 16
0.0
 26
0.0
 36
1.0
 17
0.0
 27
0.0
 37
0.0
 40
215.9
 41
1.2941176471
 42
50.0
 43
0.0
 44
0.0
 50
0.0
 51
0.0
 71
     0
 72
  2000
 73
     1
 74
     3
 75
     0
 76
     0
 77
     0
 78
     0
281
     0
 65
     1
110
0.0
120
0.0
130
0.0
111
1.0
121
0.0
131
0.0
112
0.0
122
1.0
132
0.0
 79
     0
146
0.0
  0
ENDTAB
  0
TABLE
  2
LTYPE
  5
5
330
0
100
AcDbSymbolTable
 70
     6
  0
LTYPE
  5
14
330
5
100
AcDbSymbolTableRecord
100
AcDbLinetypeTableRecord
  2
ByBlock
 70
     0
  3

 72
    65
 73
     0
 40
0.0
  0
LTYPE
  5
15
330
5
100
AcDbSymbolTableRecord
100
AcDbLinetypeTableRecord
  2
ByLayer
 70
     0
  3

 72
    65
 73
     0
 40
0.0
  0
LTYPE
  5
16
330
5
100
AcDbSymbolTableRecord
100
AcDbLinetypeTableRecord
  2
Continuous
 70
     0
  3
Solid line
 72
    65
 73
     0
 40
0.0
  0
LTYPE
  5
6E
330
5
100
AcDbSymbolTableRecord
100
AcDbLinetypeTableRecord
  2
HIDDEN
 70
     0
  3
Hidden __ __ __ __ __ __ __ __ __ __ __ __ __ __
 72
    65
 73
     2
 40
1.905
 49
1.27
 74
     0
 49
-0.635
 74
     0
  0
LTYPE
  5
6F
330
5
100
AcDbSymbolTableRecord
100
AcDbLinetypeTableRecord
  2
PHANTOM
 70
     0
  3
Phantom ______  __  __  ______  __  __  ______
 72
    65
 73
     6
 40
12.7
 49
6.35
 74
     0
 49
-1.27
 74
     0
 49
1.27
 74
     0
 49
-1.27
 74
     0
 49
1.27
 74
     0
 49
-1.27
 74
     0
  0
LTYPE
  5
70
330
5
100
AcDbSymbolTableRecord
100
AcDbLinetypeTableRecord
  2
CENTER
 70
     0
  3
Center ____ _ ____ _ ____ _ ____ _ ____ _ ____
 72
    65
 73
     4
 40
10.16
 49
6.35
 74
     0
 49
-1.27
 74
     0
 49
1.27
 74
     0
 49
-1.27
 74
     0
  0
LTYPE
  5
71
330
5
100
AcDbSymbolTableRecord
100
AcDbLinetypeTableRecord
  2
CENTERX2
 70
     0
  3
Center (2x) ________  __  ________  __  _____
 72
    65
 73
     4
 40
20.32
 49
12.7
 74
     0
 49
-2.54
 74
     0
 49
2.54
 74
     0
 49
-2.54
 74
     0
  0
LTYPE
  5
72
330
5
100
AcDbSymbolTableRecord
100
AcDbLinetypeTableRecord
  2
DOT2
 70
     0
  3
Dot (.5x) ........................................
 72
    65
 73
     2
 40
0.635
 49
0.0
 74
     0
 49
-0.635
 74
     0
  0
ENDTAB
  0
TABLE
  2
LAYER
  5
2
330
0
100
AcDbSymbolTable
 70
    17
  0
LAYER
  5
10
330
2
100
AcDbSymbolTableRecord
100
AcDbLayerTableRecord
  2
0
 70
     0
 62
     7
  6
Continuous
370
    -3
390
F
  0
LAYER
  5
73
330
2
100
AcDbSymbolTableRecord
100
AcDbLayerTableRecord
  2
FORMAT
 70
     0
 62
     7
  6
Continuous
370
    -3
390
F
  0
LAYER
  5
74
330
2
100
AcDbSymbolTableRecord
100
AcDbLayerTableRecord
  2
YARDIMCI_GEOMETRI
 70
     0
 62
    -6
  6
Continuous
290
     0
370
    -3
390
F
  0
LAYER
  5
75
330
2
100
AcDbSymbolTableRecord
100
AcDbLayerTableRecord
  2
SAYFA_CERCEVESI
 70
     0
 62
     7
  6
Continuous
370
    25
390
F
  0
LAYER
  5
76
330
2
100
AcDbSymbolTableRecord
100
AcDbLayerTableRecord
  2
ANTET
 70
     0
 62
     7
  6
Continuous
370
    -3
390
F
  0
LAYER
  5
77
330
2
100
AcDbSymbolTableRecord
100
AcDbLayerTableRecord
  2
OLCU
 70
     0
 62
   150
  6
Continuous
370
    -3
390
F
  0
LAYER
  5
78
330
2
100
AcDbSymbolTableRecord
100
AcDbLayerTableRecord
  2
METIN
 70
     0
 62
    96
  6
Continuous
370
    -3
390
F
  0
LAYER
  5
79
330
2
100
AcDbSymbolTableRecord
100
AcDbLayerTableRecord
  2
BALON
 70
     0
 62
     5
  6
Continuous
370
    -3
390
F
  0
LAYER
  5
7A
330
2
100
AcDbSymbolTableRecord
100
AcDbLayerTableRecord
  2
VURGU
 70
     0
 62
     7
  6
Continuous
370
    -3
390
F
  0
LAYER
  5
7B
330
2
100
AcDbSymbolTableRecord
100
AcDbLayerTableRecord
  2
SILIK
 70
     0
 62
     7
  6
Continuous
370
    -3
390
F
  0
LAYER
  5
7C
330
2
100
AcDbSymbolTableRecord
100
AcDbLayerTableRecord
  2
MODEL
 70
     0
 62
     7
  6
Continuous
370
    -3
390
F
  0
LAYER
  5
7D
330
2
100
AcDbSymbolTableRecord
100
AcDbLayerTableRecord
  2
DETAYLANDıRMA
 70
     0
 62
   190
  6
Continuous
370
    -3
390
F
  0
LAYER
  5
7E
330
2
100
AcDbSymbolTableRecord
100
AcDbLayerTableRecord
  2
TOLERANS
 70
     0
 62
   230
  6
Continuous
370
    -3
390
F
  0
LAYER
  5
7F
330
2
100
AcDbSymbolTableRecord
100
AcDbLayerTableRecord
  2
MERKEZ_CIZGILERI
 70
     0
 62
    30
  6
Continuous
370
    -3
390
F
  0
LAYER
  5
80
330
2
100
AcDbSymbolTableRecord
100
AcDbLayerTableRecord
  2
KESIT-DETAY_CIZGILERI
 70
     0
 62
     7
  6
Continuous
370
    -3
390
F
  0
LAYER
  5
81
330
2
100
AcDbSymbolTableRecord
100
AcDbLayerTableRecord
  2
\U+041E\U+0421\U+0415\U+0412\U+042B\U+0415
 70
     0
 62
     7
  6
Continuous
370
    -3
390
F
  0
LAYER
  5
82
330
2
100
AcDbSymbolTableRecord
100
AcDbLayerTableRecord
  2
\U+0412\U+041E\U+0414\U+042F\U+041D\U+042B\U+0415_\U+0417\U+041D\U+0410\U+041A\U+0418
 70
     0
 62
    11
  6
Continuous
370
    -3
390
F
  0
ENDTAB
  0
TABLE
  2
STYLE
  5
3
330
0
100
AcDbSymbolTable
 70
     1
  0
STYLE
  5
11
330
3
100
AcDbSymbolTableRecord
100
AcDbTextStyleTableRecord
  2
Standard
 70
     0
 40
0.0
 41
1.0
 50
0.0
 71
     0
 42
3.5
  3
txt
  4

  0
ENDTAB
  0
TABLE
  2
VIEW
  5
6
330
0
100
AcDbSymbolTable
 70
     0
  0
ENDTAB
  0
TABLE
  2
UCS
  5
7
330
0
100
AcDbSymbolTable
 70
     0
  0
ENDTAB
  0
TABLE
  2
APPID
  5
9
330
0
100
AcDbSymbolTable
 70
     1
  0
APPID
  5
12
330
9
100
AcDbSymbolTableRecord
100
AcDbRegAppTableRecord
  2
ACAD
 70
     0
  0
ENDTAB
  0
TABLE
  2
DIMSTYLE
  5
A
330
0
100
AcDbSymbolTable
 70
     1
100
AcDbDimStyleTable
  0
DIMSTYLE
105
27
330
A
100
AcDbSymbolTableRecord
100
AcDbDimStyleTableRecord
  2
ISO-25
 70
     0
 41
2.5
 42
0.625
 43
3.75
 44
1.25
 73
     0
 74
     0
 77
     1
 78
     8
140
2.5
141
2.5
143
0.0393700787
147
0.625
171
     3
172
     1
178
     0
271
     2
272
     2
274
     3
278
    44
283
     0
284
     8
340
11
  0
ENDTAB
  0
TABLE
  2
BLOCK_RECORD
  5
1
330
0
100
AcDbSymbolTable
 70
     3
  0
BLOCK_RECORD
  5
1F
330
1
100
AcDbSymbolTableRecord
100
AcDbBlockTableRecord
  2
*Model_Space
340
22
  0
BLOCK_RECORD
  5
1B
330
1
100
AcDbSymbolTableRecord
100
AcDbBlockTableRecord
  2
*Paper_Space
340
1E
  0
BLOCK_RECORD
  5
23
330
1
100
AcDbSymbolTableRecord
100
AcDbBlockTableRecord
  2
*Paper_Space0
340
26
  0
BLOCK_RECORD
  5
88
330
1
100
AcDbSymbolTableRecord
100
AcDbBlockTableRecord
  2
SW_CENTERMARKSYMBOL_0
340
0
102
{BLKREFS
331
93
102
}
  0
BLOCK_RECORD
  5
B2
330
1
100
AcDbSymbolTableRecord
100
AcDbBlockTableRecord
  2
SW_CENTERMARKSYMBOL_1
340
0
102
{BLKREFS
331
BD
102
}
  0
ENDTAB
  0
ENDSEC
  0
SECTION
  2
BLOCKS
  0
BLOCK
  5
20
330
1F
100
AcDbEntity
  8
0
100
AcDbBlockBegin
  2
*Model_Space
 70
     0
 10
0.0
 20
0.0
 30
0.0
  3
*Model_Space
  1

  0
ENDBLK
  5
21
330
1F
100
AcDbEntity
  8
0
100
AcDbBlockEnd
  0
BLOCK
  5
1C
330
1B
100
AcDbEntity
 67
     1
  8
0
100
AcDbBlockBegin
  2
*Paper_Space
 70
     0
 10
0.0
 20
0.0
 30
0.0
  3
*Paper_Space
  1

  0
ENDBLK
  5
1D
330
1B
100
AcDbEntity
 67
     1
  8
0
100
AcDbBlockEnd
  0
BLOCK
  5
24
330
23
100
AcDbEntity
  8
0
100
AcDbBlockBegin
  2
*Paper_Space0
 70
     0
 10
0.0
 20
0.0
 30
0.0
  3
*Paper_Space0
  1

  0
ENDBLK
  5
25
330
23
100
AcDbEntity
  8
0
100
AcDbBlockEnd
  0
BLOCK
  5
89
330
88
100
AcDbEntity
  8
0
100
AcDbBlockBegin
  2
SW_CENTERMARKSYMBOL_0
 70
     0
 10
0.0
 20
0.0
 30
0.0
  3
SW_CENTERMARKSYMBOL_0
  1

  0
LINE
  5
8B
330
88
100
AcDbEntity
  8
FORMAT
 62
     0
100
AcDbLine
 10
0.0
 20
0.0
 30
0.0
 11
0.0
 21
2.5
 31
0.0
  0
LINE
  5
8C
330
88
100
AcDbEntity
  8
FORMAT
 62
     0
100
AcDbLine
 10
0.0
 20
0.0
 30
0.0
 11
-2.5
 21
0.0
 31
0.0
  0
LINE
  5
8D
330
88
100
AcDbEntity
  8
FORMAT
 62
     0
100
AcDbLine
 10
0.0
 20
0.0
 30
0.0
 11
0.0
 21
-2.5
 31
0.0
  0
LINE
  5
8E
330
88
100
AcDbEntity
  8
FORMAT
 62
     0
100
AcDbLine
 10
0.0
 20
0.0
 30
0.0
 11
2.5
 21
0.0
 31
0.0
  0
LINE
  5
8F
330
88
100
AcDbEntity
  8
FORMAT
 62
     0
100
AcDbLine
 10
0.0
 20
5.0
 30
0.0
 11
0.0
 21
57.5
 31
0.0
  0
LINE
  5
90
330
88
100
AcDbEntity
  8
FORMAT
 62
     0
100
AcDbLine
 10
-5.0
 20
0.0
 30
0.0
 11
-57.5
 21
0.0
 31
0.0
  0
LINE
  5
91
330
88
100
AcDbEntity
  8
FORMAT
 62
     0
100
AcDbLine
 10
0.0
 20
-5.0
 30
0.0
 11
0.0
 21
-57.5
 31
0.0
  0
LINE
  5
92
330
88
100
AcDbEntity
  8
FORMAT
 62
     0
100
AcDbLine
 10
5.0
 20
0.0
 30
0.0
 11
57.5
 21
0.0
 31
0.0
  0
ENDBLK
  5
8A
330
88
100
AcDbEntity
  8
0
100
AcDbBlockEnd
  0
BLOCK
  5
B3
330
B2
100
AcDbEntity
  8
0
100
AcDbBlockBegin
  2
SW_CENTERMARKSYMBOL_1
 70
     0
 10
0.0
 20
0.0
 30
0.0
  3
SW_CENTERMARKSYMBOL_1
  1

  0
LINE
  5
B5
330
B2
100
AcDbEntity
  8
FORMAT
 62
     0
100
AcDbLine
 10
0.0
 20
0.0
 30
0.0
 11
0.0
 21
2.5
 31
0.0
  0
LINE
  5
B6
330
B2
100
AcDbEntity
  8
FORMAT
 62
     0
100
AcDbLine
 10
0.0
 20
0.0
 30
0.0
 11
-2.5
 21
0.0
 31
0.0
  0
LINE
  5
B7
330
B2
100
AcDbEntity
  8
FORMAT
 62
     0
100
AcDbLine
 10
0.0
 20
0.0
 30
0.0
 11
0.0
 21
-2.5
 31
0.0
  0
LINE
  5
B8
330
B2
100
AcDbEntity
  8
FORMAT
 62
     0
100
AcDbLine
 10
0.0
 20
0.0
 30
0.0
 11
2.5
 21
0.0
 31
0.0
  0
LINE
  5
B9
330
B2
100
AcDbEntity
  8
FORMAT
 62
     0
100
AcDbLine
 10
0.0
 20
5.0
 30
0.0
 11
0.0
 21
27.5
 31
0.0
  0
LINE
  5
BA
330
B2
100
AcDbEntity
  8
FORMAT
 62
     0
100
AcDbLine
 10
-5.0
 20
0.0
 30
0.0
 11
-27.5
 21
0.0
 31
0.0
  0
LINE
  5
BB
330
B2
100
AcDbEntity
  8
FORMAT
 62
     0
100
AcDbLine
 10
0.0
 20
-5.0
 30
0.0
 11
0.0
 21
-27.5
 31
0.0
  0
LINE
  5
BC
330
B2
100
AcDbEntity
  8
FORMAT
 62
     0
100
AcDbLine
 10
5.0
 20
0.0
 30
0.0
 11
27.5
 21
0.0
 31
0.0
  0
ENDBLK
  5
B4
330
B2
100
AcDbEntity
  8
0
100
AcDbBlockEnd
  0
ENDSEC
  0
SECTION
  2
ENTITIES
  0
LINE
  5
83
330
1F
100
AcDbEntity
  8
0
  6
Continuous
 62
     7
370
    25
100
AcDbLine
 10
167.5628508121
 20
90.0029005303
 30
0.0
 11
265.5275510204
 21
90.0029005303
 31
0.0
  0
LINE
  5
84
330
1F
100
AcDbEntity
  8
0
  6
Continuous
 62
     7
370
    25
100
AcDbLine
 10
265.5275510204
 20
140.0029005303
 30
0.0
 11
167.5353766482
 21
140.0029005303
 31
0.0
  0
CIRCLE
  5
85
330
1F
100
AcDbEntity
  8
0
  6
Continuous
 62
     7
370
    25
100
AcDbCircle
 10
118.5275510204
 20
115.0029005303
 30
0.0
 40
45.00000000000001
  0
CIRCLE
  5
86
330
1F
100
AcDbEntity
  8
0
  6
Continuous
 62
     7
370
    25
100
AcDbCircle
 10
118.5275510204
 20
115.0029005303
 30
0.0
 40
54.99999999999999
  0
LINE
  5
87
330
1F
100
AcDbEntity
  8
0
  6
Continuous
 62
     7
370
    25
100
AcDbLine
 10
265.5275510204
 20
140.0029005303
 30
0.0
 11
265.5275510204
 21
90.0029005303
 31
0.0
  0
INSERT
  5
93
330
1F
100
AcDbEntity
  8
FORMAT
100
AcDbBlockReference
  2
SW_CENTERMARKSYMBOL_0
 10
118.5275510204
 20
115.0029005303
 30
0.0
  0
LINE
  5
94
330
1F
100
AcDbEntity
  8
0
  6
Continuous
 62
     7
370
    25
100
AcDbLine
 10
63.5275510204
 20
14.8705296746
 30
0.0
 11
63.5275510204
 21
-312.1294703254
 31
0.0
  0
LINE
  5
95
330
1F
100
AcDbEntity
  8
0
  6
Continuous
 62
     7
370
    25
100
AcDbLine
 10
173.5275510204
 20
-123.6979173389
 30
0.0
 11
173.5275510204
 21
14.8705296746
 31
0.0
  0
LINE
  5
96
330
1F
100
AcDbEntity
  8
0
  6
Continuous
 62
     7
370
    25
100
AcDbLine
 10
173.5275510204
 20
-312.1294703254
 30
0.0
 11
173.5275510204
 21
-173.6294703254
 31
0.0
  0
LINE
  5
97
330
1F
100
AcDbEntity
  8
0
  6
Continuous
 62
     7
370
    25
100
AcDbLine
 10
173.5275510204
 20
-173.6294703254
 30
0.0
 11
265.5275510204
 21
-173.6294703254
 31
0.0
  0
LINE
  5
98
330
1F
100
AcDbEntity
  8
0
  6
Continuous
 62
     7
370
    25
100
AcDbLine
 10
265.5275510204
 20
-123.6294703254
 30
0.0
 11
173.496546371
 21
-123.6294703254
 31
0.0
  0
LWPOLYLINE
  5
99
330
1F
100
AcDbEntity
  8
0
  6
Continuous
 62
     7
370
    25
100
AcDbPolyline
 90
       22
 70
   128
 43
0.0
 10
173.4965095139
 20
-123.6979173389
 10
173.4430647833
 20
-123.815892352
 10
173.1106601811
 20
-124.5604901714
 10
172.5380889358
 20
-125.8887973821
 10
171.7799166879
 20
-127.7533009167
 10
170.883194564
 20
-130.1602144968
 10
169.8931285887
 20
-133.1885325648
 10
168.936852113
 20
-136.7510177056
 10
168.1586615593
 20
-140.6766636936
 10
167.6497386168
 20
-145.0254012013
 10
167.5186305009
 20
-148.984250065
 10
167.7174917511
 20
-153.0623327289
 10
168.1680319496
 20
-156.6405468374
 10
168.8423257946
 20
-160.1001529807
 10
169.6946113591
 20
-163.3965981337
 10
170.6384285389
 20
-166.393016023
 10
171.6211948959
 20
-169.0973725134
 10
172.501985935
 20
-171.2842628503
 10
173.1299918689
 20
-172.7422583562
 10
173.4810200383
 20
-173.5269351984
 10
173.5275510204
 20
-173.6294703254
 10
173.5275510204
 20
-173.6294703254
  0
LINE
  5
9A
330
1F
100
AcDbEntity
  8
0
  6
Continuous
 62
     7
370
    25
100
AcDbLine
 10
173.5275510204
 20
-312.1294703254
 30
0.0
 11
63.5275510204
 21
-312.1294703254
 31
0.0
  0
LINE
  5
9B
330
1F
100
AcDbEntity
  8
0
  6
Continuous
 62
     7
370
    25
100
AcDbLine
 10
173.5275510204
 20
14.8705296746
 30
0.0
 11
63.5275510204
 21
14.8705296746
 31
0.0
  0
LINE
  5
9C
330
1F
100
AcDbEntity
  8
0
  6
Continuous
 62
     7
370
    25
100
AcDbLine
 10
265.5275510204
 20
-123.6294703254
 30
0.0
 11
265.5275510204
 21
-173.6294703254
 31
0.0
  0
LINE
  5
9D
330
1F
100
AcDbEntity
  8
0
  6
Continuous
 62
     7
370
    25
100
AcDbLine
 10
173.5275510204
 20
397.0116812847
 30
0.0
 11
173.5275510204
 21
535.5116812847
 31
0.0
  0
LINE
  5
9E
330
1F
100
AcDbEntity
  8
0
  6
Continuous
 62
     7
370
    25
100
AcDbLine
 10
173.5275510204
 20
208.5116812847
 30
0.0
 11
173.5275510204
 21
347.0801282982
 31
0.0
  0
LINE
  5
9F
330
1F
100
AcDbEntity
  8
0
  6
Continuous
 62
     7
370
    25
100
AcDbLine
 10
63.5275510204
 20
535.5116812847
 30
0.0
 11
63.5275510204
 21
208.5116812847
 31
0.0
  0
LINE
  5
A0
330
1F
100
AcDbEntity
  8
0
  6
Continuous
 62
     7
370
    25
100
AcDbLine
 10
173.496546371
 20
347.0116812847
 30
0.0
 11
265.5275510204
 21
347.0116812847
 31
0.0
  0
LINE
  5
A1
330
1F
100
AcDbEntity
  8
0
  6
Continuous
 62
     7
370
    25
100
AcDbLine
 10
265.5275510204
 20
397.0116812847
 30
0.0
 11
173.5275510204
 21
397.0116812847
 31
0.0
  0
SPLINE
  5
A2
330
1F
100
AcDbEntity
  8
0
  6
Continuous
 62
     7
370
    25
100
AcDbSpline
210
0.0
220
0.0
230
1.0
 70
     8
 71
     3
 72
    27
 73
    23
 74
     0
 42
0.000000001
 43
0.00000001
 40
0.0
 40
0.0
 40
0.0
 40
0.0
 40
0.0493586139300482
 40
0.1002323018768613
 40
0.1495702843187569
 40
0.2002087704685643
 40
0.2521676674845192
 40
0.305463842343957
 40
0.3604228873598292
 40
0.4171466436260113
 40
0.4690138396459161
 40
0.5227149136556893
 40
0.5698398307008306
 40
0.6182817012845756
 40
0.6665902065725859
 40
0.7160567440479336
 40
0.7692498342889995
 40
0.8238840201435373
 40
0.8786078794321117
 40
0.935164230051648
 40
0.9859157616870959
 40
1.0
 40
1.0
 40
1.0
 40
1.0
 10
173.5275510204079
 20
397.0116812847352
 30
0.0
 10
173.5002143075119
 20
396.9518294682003
 30
0.0
 10
173.4447017750245
 20
396.8302886698445
 30
0.0
 10
173.008978320432
 20
395.8579462782963
 30
0.0
 10
172.3562156154535
 20
394.3362160622319
 30
0.0
 10
171.5197064161988
 20
392.2537566692451
 30
0.0
 10
170.5600421495515
 20
389.6145578249725
 30
0.0
 10
169.559554879211
 20
386.430043415385
 30
0.0
 10
168.624078709518
 20
382.7192404306984
 30
0.0
 10
167.9115036035529
 20
378.6800711138566
 30
0.0
 10
167.5175285961838
 20
374.4413435285992
 30
0.0
 10
167.4898341522886
 20
370.3659650679082
 30
0.0
 10
167.7868960271916
 20
366.4435780439526
 30
0.0
 10
168.3319358926944
 20
362.8179802557867
 30
0.0
 10
169.0858957833919
 20
359.3804895126136
 30
0.0
 10
169.9910996468347
 20
356.1559299711897
 30
0.0
 10
170.9801791127612
 20
353.2097752274006
 30
0.0
 10
171.9447370486818
 20
350.6850733832144
 30
0.0
 10
172.7751572119866
 20
348.6985936048058
 30
0.0
 10
173.3090829226435
 20
347.4920137782677
 30
0.0
 10
173.5481766390821
 20
346.9661757887511
 30
0.0
 10
173.5057301426982
 20
347.0597920826177
 30
0.0
 10
173.4965095138525
 20
347.0801282981641
 30
0.0
  0
LINE
  5
A3
330
1F
100
AcDbEntity
  8
0
  6
Continuous
 62
     7
370
    25
100
AcDbLine
 10
63.5275510204
 20
535.5116812847
 30
0.0
 11
173.5275510204
 21
535.5116812847
 31
0.0
  0
LINE
  5
A4
330
1F
100
AcDbEntity
  8
0
  6
Continuous
 62
     7
370
    25
100
AcDbLine
 10
63.5275510204
 20
208.5116812847
 30
0.0
 11
173.5275510204
 21
208.5116812847
 31
0.0
  0
LINE
  5
A5
330
1F
100
AcDbEntity
  8
0
  6
Continuous
 62
     7
370
    25
100
AcDbLine
 10
265.5275510204
 20
397.0116812847
 30
0.0
 11
265.5275510204
 21
347.0116812847
 31
0.0
  0
LINE
  5
A6
330
1F
100
AcDbEntity
  8
0
  6
Continuous
 62
     7
370
    25
100
AcDbLine
 10
322.9914825894
 20
60.0029005303
 30
0.0
 11
649.9914825894
 21
60.0029005303
 31
0.0
  0
LINE
  5
A7
330
1F
100
AcDbEntity
  8
0
  6
Continuous
 62
     7
370
    25
100
AcDbLine
 10
649.9914825894
 20
170.0029005303
 30
0.0
 11
322.9914825894
 21
170.0029005303
 31
0.0
  0
LINE
  5
A8
330
1F
100
AcDbEntity
  8
0
  6
Continuous
 62
     7
370
    25
100
AcDbLine
 10
649.9914825894
 20
170.0029005303
 30
0.0
 11
649.9914825894
 21
60.0029005303
 31
0.0
  0
LINE
  5
A9
330
1F
100
AcDbEntity
  8
0
  6
Continuous
 62
     7
370
    25
100
AcDbLine
 10
322.9914825894
 20
170.0029005303
 30
0.0
 11
322.9914825894
 21
60.0029005303
 31
0.0
  0
LINE
  5
AA
330
1F
100
AcDbEntity
  8
0
  6
Continuous
 62
     7
370
    25
100
AcDbLine
 10
-11.2799080177
 20
170.0029005303
 30
0.0
 11
-338.2799080177
 21
170.0029005303
 31
0.0
  0
LINE
  5
AB
330
1F
100
AcDbEntity
  8
0
  6
Continuous
 62
     7
370
    25
100
AcDbLine
 10
-338.2799080177
 20
60.0029005303
 30
0.0
 11
-11.2799080177
 21
60.0029005303
 31
0.0
  0
CIRCLE
  5
AC
330
1F
100
AcDbEntity
  8
0
  6
Continuous
 62
     7
370
    25
100
AcDbCircle
 10
-174.7799080177
 20
115.0029005303
 30
0.0
 40
20.40000000000003
  0
CIRCLE
  5
AD
330
1F
100
AcDbEntity
  8
0
  6
Continuous
 62
     7
370
    25
100
AcDbCircle
 10
-174.7799080177
 20
115.0029005303
 30
0.0
 40
25.00000000000003
  0
LINE
  5
AE
330
1F
100
AcDbEntity
  8
0
  6
Continuous
 62
     7
370
    25
100
AcDbLine
 10
-338.2799080177
 20
115.0029005303
 30
0.0
 11
-338.2799080177
 21
170.0029005303
 31
0.0
  0
LINE
  5
AF
330
1F
100
AcDbEntity
  8
0
  6
Continuous
 62
     7
370
    25
100
AcDbLine
 10
-338.2799080177
 20
60.0029005303
 30
0.0
 11
-338.2799080177
 21
115.0029005303
 31
0.0
  0
LINE
  5
B0
330
1F
100
AcDbEntity
  8
0
  6
Continuous
 62
     7
370
    25
100
AcDbLine
 10
-11.2799080177
 20
115.0029005303
 30
0.0
 11
-11.2799080177
 21
170.0029005303
 31
0.0
  0
LINE
  5
B1
330
1F
100
AcDbEntity
  8
0
  6
Continuous
 62
     7
370
    25
100
AcDbLine
 10
-11.2799080177
 20
60.0029005303
 30
0.0
 11
-11.2799080177
 21
115.0029005303
 31
0.0
  0
INSERT
  5
BD
330
1F
100
AcDbEntity
  8
FORMAT
100
AcDbBlockReference
  2
SW_CENTERMARKSYMBOL_1
 10
-174.7799080177
 20
115.0029005303
 30
0.0
  0
LINE
  5
BE
330
1F
100
AcDbEntity
  8
0
  6
Continuous
 62
     7
370
    25
100
AcDbLine
 10
608.3380343242
 20
-144.5735391838
 30
0.0
 11
545.2348123702
 21
-108.1448245567
 31
0.0
  0
LINE
  5
BF
330
1F
100
AcDbEntity
  8
0
  6
Continuous
 62
     7
370
    25
100
AcDbLine
 10
495.2307486717
 20
-79.2780930293
 30
0.0
 11
377.1141168762
 21
-11.0908129008
 31
0.0
  0
LINE
  5
C0
330
1F
100
AcDbEntity
  8
0
  6
Continuous
 62
     7
370
    25
100
AcDbLine
 10
322.1185865812
 20
-106.3561877626
 30
0.0
 11
553.3425040292
 21
-239.8389140456
 31
0.0
  0
LINE
  5
C1
330
1F
100
AcDbEntity
  8
0
  6
Continuous
 62
     7
370
    25
100
AcDbLine
 10
514.5536563014
 20
-125.8566789478
 30
0.0
 11
581.671991445
 21
-87.1100888137
 31
0.0
  0
LINE
  5
C2
330
1F
100
AcDbEntity
  8
0
  6
Continuous
 62
     7
370
    25
100
AcDbLine
 10
556.6740231291
 20
-43.8076456947
 30
0.0
 11
489.5564555978
 21
-82.5537926956
 31
0.0
  0
SPLINE
  5
C3
330
1F
100
AcDbEntity
  8
0
  6
Continuous
 62
     7
370
    25
100
AcDbSpline
210
0.0
220
0.0
230
1.0
 70
     8
 71
     3
 72
    22
 73
    18
 74
     0
 42
0.000000001
 43
0.00000001
 40
0.0
 40
0.0
 40
0.0
 40
0.0
 40
0.0657976361154295
 40
0.1336149458178101
 40
0.1993850790711877
 40
0.2668888523708847
 40
0.3361528030089641
 40
0.4071994155559741
 40
0.4804627217406
 40
0.5560784811132602
 40
0.625220189486229
 40
0.6968065539597209
 40
0.7596265542964477
 40
0.8242021231715616
 40
0.8885999090722261
 40
0.9545414129666813
 40
1.0
 40
1.0
 40
1.0
 40
1.0
 10
486.4415138882619
 20
-92.80853900028718
 30
0.0
 10
486.4645055382031
 20
-93.91436279164257
 30
0.0
 10
486.511194572073
 20
-96.15995389018579
 30
0.0
 10
486.8906414664415
 20
-99.88086305805913
 30
0.0
 10
487.5050942669343
 20
-103.7540437520908
 30
0.0
 10
488.3861141717774
 20
-107.6966977728251
 30
0.0
 10
489.573724174272
 20
-111.6620298025781
 30
0.0
 10
491.1180656880624
 20
-115.5417107867645
 30
0.0
 10
493.0805137504715
 20
-119.2059136659879
 30
0.0
 10
495.4327874247739
 20
-122.3624621605457
 30
0.0
 10
498.1513810266855
 20
-124.8889577825812
 30
0.0
 10
501.013732769436
 20
-126.6079698086284
 30
0.0
 10
503.9966398747306
 20
-127.609930948373
 30
0.0
 10
506.9483072190773
 20
-127.9585411539512
 30
0.0
 10
509.9023598503946
 20
-127.6775143387131
 30
0.0
 10
512.486571803099
 20
-126.9767280884888
 30
0.0
 10
513.9275217179866
 20
-126.1328770642269
 30
0.0
 10
514.5155243539901
 20
-125.7885301708799
 30
0.0
  0
SPLINE
  5
C4
330
1F
100
AcDbEntity
  8
0
  6
Continuous
 62
     7
370
    25
100
AcDbSpline
210
0.0
220
0.0
230
1.0
 70
     8
 71
     3
 72
    13
 73
     9
 74
     0
 42
0.000000001
 43
0.00000001
 40
0.0
 40
0.0
 40
0.0
 40
0.0
 40
0.0063822937351117
 40
0.2242217845220216
 40
0.4484594153664981
 40
0.6635668564582543
 40
0.8860784606906509
 40
1.0
 40
1.0
 40
1.0
 40
1.0
 10
489.560832850732
 20
-82.56218747517654
 30
0.0
 10
489.545694105554
 20
-82.56730494914585
 30
0.0
 10
489.0138419846558
 20
-82.74709127570239
 30
0.0
 10
488.2588794015621
 20
-83.66380987213722
 30
0.0
 10
487.3272860969107
 20
-85.40267573277603
 30
0.0
 10
486.7377750550691
 20
-87.87944907125443
 30
0.0
 10
486.4728093087684
 20
-90.41936232711844
 30
0.0
 10
486.449430365237
 20
-92.2041738306696
 30
0.0
 10
486.4415138882619
 20
-92.80853900028718
 30
0.0
  0
LWPOLYLINE
  5
C5
330
1F
100
AcDbEntity
  8
0
  6
Continuous
 62
     7
370
    25
100
AcDbPolyline
 90
       90
 70
   128
 43
0.0
 10
388.5072246939
 20
-36.2722772566
 10
388.4103485075
 20
-33.1603160499
 10
388.1202025805
 20
-30.1757093414
 10
387.6382324054
 20
-27.3333262916
 10
386.9668391333
 20
-24.6473275099
 10
386.1093676118
 20
-22.1310945071
 10
385.0700897207
 20
-19.7971630295
 10
383.8541830904
 20
-17.6571606063
 10
382.4677053065
 20
-15.7217486219
 10
380.9175637314
 20
-14.0005692015
 10
379.2114810927
 20
-12.5021971743
 10
377.3579570082
 20
-11.2340973545
 10
375.3662256416
 20
-10.2025873514
 10
373.2462096985
 20
-9.4128060962
 10
371.0084709915
 20
-8.8686882393
 10
368.6641578225
 20
-8.5729445484
 10
366.2249494416
 20
-8.5270484038
 10
363.7029978624
 20
-8.7312284578
 10
361.1108673207
 20
-9.1844674955
 10
358.4614716805
 20
-9.8845075029
 10
355.7680100976
 20
-10.8278609159
 10
353.0439012622
 20
-12.0098279953
 10
350.3027165474
 20
-13.4245202405
 10
347.5581123976
 20
-15.0648897259
 10
344.8237622926
 20
-16.9227642132
 10
342.1132886271
 20
-18.9888878652
 10
339.4401948446
 20
-21.2529673579
 10
336.8177981638
 20
-23.703723161
 10
334.2591632331
 20
-26.3289457324
 10
331.7770370429
 20
-29.1155563453
 10
329.3837854212
 20
-32.0496722458
 10
327.0913314271
 20
-35.1166758161
 10
324.9110959511
 20
-38.3012873987
 10
322.8539408167
 20
-41.5876414189
 10
320.9301146672
 20
-44.9593654262
 10
319.1492019078
 20
-48.3996616612
 10
317.5200749563
 20
-51.8913907412
 10
316.0508500412
 20
-55.4171570475
 10
314.7488467671
 20
-58.9593953898
 10
313.6205516488
 20
-62.5004585147
 10
312.6715857959
 20
-66.022705024
 10
311.9066769084
 20
-69.5085872626
 10
311.3296357241
 20
-72.9407387406
 10
310.943337033
 20
-76.3020606521
 10
310.7497053558
 20
-79.5758070602
 10
310.7497053558
 20
-82.7456683252
 10
310.943337033
 20
-85.7958523575
 10
311.3296357241
 20
-88.7111632938
 10
311.9066769084
 20
-91.4770772017
 10
312.6715857959
 20
-94.0798144372
 10
313.6205516488
 20
-96.5064082943
 10
314.7488467671
 20
-98.7447696044
 10
316.0508500412
 20
-100.7837469642
 10
317.5200749563
 20
-102.6131822909
 10
319.1492019078
 20
-104.2239614298
 10
320.9301146672
 20
-105.6080595603
 10
322.8539408167
 20
-106.758581175
 10
324.9110959511
 20
-107.6697944333
 10
327.0913314271
 20
-108.3371597164
 10
329.3837854212
 20
-108.7573522441
 10
331.7770370429
 20
-108.9282786383
 10
334.2591632331
 20
-108.8490873524
 10
336.8177981638
 20
-108.5201729133
 10
339.4401948446
 20
-107.9431739563
 10
342.1132886271
 20
-107.1209650612
 10
344.8237622926
 20
-106.0576424312
 10
347.5581123976
 20
-104.7585034862
 10
350.3027165474
 20
-103.2300204712
 10
353.0439012622
 20
-101.4798082115
 10
355.7680100976
 20
-99.5165861768
 10
358.4614716805
 20
-97.3501350403
 10
361.1108673207
 20
-94.9912479526
 10
363.7029978624
 20
-92.4516767707
 10
366.2249494416
 20
-89.7440735103
 10
368.6641578225
 20
-86.8819273147
 10
371.0084709915
 20
-83.8794972522
 10
373.2462096985
 20
-80.7517412785
 10
375.3662256416
 20
-77.5142417165
 10
377.3579570082
 20
-74.1831276261
 10
379.2114810927
 20
-70.7749944502
 10
380.9175637314
 20
-67.3068213367
 10
382.4677053065
 20
-63.7958865498
 10
383.8541830904
 20
-60.2596813899
 10
385.0700897207
 20
-56.7158230532
 10
386.1093676118
 20
-53.1819668637
 10
386.9668391333
 20
-49.6757183152
 10
387.6382324054
 20
-46.2145453617
 10
388.1202025805
 20
-42.8156913925
 10
388.4103485075
 20
-39.4960893273
 10
388.5072246939
 20
-36.2722772566
  0
LWPOLYLINE
  5
C6
330
1F
100
AcDbEntity
  8
0
  6
Continuous
 62
     7
370
    25
100
AcDbPolyline
 90
       13
 70
   128
 43
0.0
 10
619.7311421419
 20
-169.7550035396
 10
619.6342659555
 20
-166.6430423329
 10
619.3441200285
 20
-163.6584356244
 10
618.8621498534
 20
-160.8160525746
 10
618.1907565813
 20
-158.1300537929
 10
617.3332850598
 20
-155.6138207902
 10
616.2940071687
 20
-153.2798893126
 10
615.0781005384
 20
-151.1398868893
 10
613.6916227545
 20
-149.2044749049
 10
612.1414811794
 20
-147.4832954845
 10
610.4353985407
 20
-145.9849234573
 10
608.5818744562
 20
-144.7168236375
 10
608.3380343242
 20
-144.5735391838
  0
LWPOLYLINE
  5
C7
330
1F
100
AcDbEntity
  8
0
  6
Continuous
 62
     7
370
    25
100
AcDbPolyline
 90
       35
 70
   128
 43
0.0
 10
553.3425040292
 20
-239.8389140456
 10
554.0778582647
 20
-240.241307458
 10
556.1350133991
 20
-241.1525207163
 10
558.3152488751
 20
-241.8198859994
 10
560.6077028692
 20
-242.2400785271
 10
563.0009544909
 20
-242.4110049213
 10
565.4830806811
 20
-242.3318136354
 10
568.0417156118
 20
-242.0028991964
 10
570.6641122926
 20
-241.4259002393
 10
573.3372060751
 20
-240.6036913442
 10
576.0476797406
 20
-239.5403687142
 10
578.7820298456
 20
-238.2412297692
 10
581.5266339954
 20
-236.7127467542
 10
584.2678187102
 20
-234.9625344946
 10
586.9919275456
 20
-232.9993124598
 10
589.6853891285
 20
-230.8328613233
 10
592.3347847687
 20
-228.4739742356
 10
594.9269153104
 20
-225.9344030537
 10
597.4488668896
 20
-223.2267997933
 10
599.8880752705
 20
-220.3646535977
 10
602.2323884395
 20
-217.3622235352
 10
604.4701271465
 20
-214.2344675616
 10
606.5901430896
 20
-210.9969679995
 10
608.5818744562
 20
-207.6658539091
 10
610.4353985407
 20
-204.2577207332
 10
612.1414811794
 20
-200.7895476197
 10
613.6916227545
 20
-197.2786128328
 10
615.0781005384
 20
-193.7424076729
 10
616.2940071687
 20
-190.1985493362
 10
617.3332850598
 20
-186.6646931467
 10
618.1907565813
 20
-183.1584445983
 10
618.8621498534
 20
-179.6972716447
 10
619.3441200285
 20
-176.2984176755
 10
619.6342659555
 20
-172.9788156103
 10
619.7311421419
 20
-169.7550035396
  0
LWPOLYLINE
  5
C8
330
1F
100
AcDbEntity
  8
0
  6
Continuous
 62
     7
370
    25
100
AcDbPolyline
 90
       81
 70
   128
 43
0.0
 10
381.4361568821
 20
-40.3543178157
 10
381.3380670421
 20
-37.5280164573
 10
381.0444022787
 20
-34.8323923053
 10
380.5569731327
 20
-32.2840647788
 10
379.878784767
 20
-29.8987451645
 10
379.0140184384
 20
-27.691139751
 10
377.9680057187
 20
-25.6748591599
 10
376.7471956244
 20
-23.8623344313
 10
375.3591148555
 20
-22.264740383
 10
373.8123213915
 20
-20.8919267136
 10
372.1163517287
 20
-19.7523572758
 10
370.2816620838
 20
-18.8530578941
 10
368.3195639287
 20
-18.1995730484
 10
366.2421542509
 20
-17.7959316899
 10
364.0622409719
 20
-17.6446224019
 10
361.793263982
 20
-17.7465780565
 10
359.4492122788
 20
-18.101170063
 10
357.0445377205
 20
-18.706212244
 10
354.5940659255
 20
-19.5579743132
 10
352.1129048672
 20
-20.6512048741
 10
349.6163517287
 20
-21.9791637968
 10
347.1197985901
 20
-23.533663773
 10
344.6386375318
 20
-25.3051207934
 10
342.1881657368
 20
-27.2826132364
 10
339.7834911786
 20
-29.4539492035
 10
337.4394394754
 20
-31.8057416864
 10
335.1704624855
 20
-34.3234911024
 10
332.9905492065
 20
-36.9916746891
 10
330.9131395287
 20
-39.7938422075
 10
328.9510413735
 20
-42.712717363
 10
327.1163517287
 20
-45.7303043196
 10
325.4203820658
 20
-48.8279986503
 10
323.8735886019
 20
-51.9867020395
 10
322.485507833
 20
-55.1869400303
 10
321.2646977386
 20
-58.4089820914
 10
320.2186850189
 20
-61.6329632621
 10
319.3539186903
 20
-64.8390066263
 10
318.6757303246
 20
-68.0073458605
 10
318.1883011786
 20
-71.1184470999
 10
317.8946364152
 20
-74.1531293708
 10
317.7965465753
 20
-77.0926828477
 10
317.8946364152
 20
-79.9189842061
 10
318.1883011786
 20
-82.6146083581
 10
318.6757303246
 20
-85.1629358846
 10
319.3539186903
 20
-87.5482554989
 10
320.2186850189
 20
-89.7558609123
 10
321.2646977386
 20
-91.7721415035
 10
322.485507833
 20
-93.5846662321
 10
323.8735886019
 20
-95.1822602804
 10
325.4203820658
 20
-96.5550739498
 10
327.1163517287
 20
-97.6946433876
 10
328.9510413735
 20
-98.5939427693
 10
330.9131395287
 20
-99.247427615
 10
332.9905492065
 20
-99.6510689735
 10
335.1704624855
 20
-99.8023782615
 10
337.4394394754
 20
-99.7004226069
 10
339.7834911786
 20
-99.3458306003
 10
342.1881657368
 20
-98.7407884193
 10
344.6386375318
 20
-97.8890263502
 10
347.1197985901
 20
-96.7957957893
 10
349.6163517287
 20
-95.4678368665
 10
352.1129048672
 20
-93.9133368903
 10
354.5940659255
 20
-92.14187987
 10
357.0445377205
 20
-90.164387427
 10
359.4492122788
 20
-87.9930514599
 10
361.793263982
 20
-85.641258977
 10
364.0622409719
 20
-83.123509561
 10
366.2421542509
 20
-80.4553259742
 10
368.3195639287
 20
-77.6531584558
 10
370.2816620838
 20
-74.7342833004
 10
372.1163517287
 20
-71.7166963438
 10
373.8123213915
 20
-68.6190020131
 10
375.3591148555
 20
-65.4602986239
 10
376.7471956244
 20
-62.2600606331
 10
377.9680057187
 20
-59.038018572
 10
379.0140184384
 20
-55.8140374013
 10
379.878784767
 20
-52.6079940371
 10
380.5569731327
 20
-49.4396548028
 10
381.0444022787
 20
-46.3285535634
 10
381.3380670421
 20
-43.2938712926
 10
381.4361568821
 20
-40.3543178157
  0
LWPOLYLINE
  5
C9
330
1F
100
AcDbEntity
  8
0
  6
Continuous
 62
     7
370
    25
100
AcDbPolyline
 90
       55
 70
   128
 43
0.0
 10
583.5979856233
 20
-73.7862299948
 10
583.5004490802
 20
-71.796113459
 10
583.2091584654
 20
-69.7202965397
 10
582.7280529846
 20
-67.5868510997
 10
582.0636387643
 20
-65.4246283288
 10
581.2249008669
 20
-63.2628685805
 10
580.2231817836
 20
-61.1308059471
 10
579.0720280467
 20
-59.0572729182
 10
577.7870070357
 20
-57.0703104709
 10
576.3854964552
 20
-55.1967888636
 10
574.8864493316
 20
-53.4620442621
 10
573.3101377057
 20
-51.8895361112
 10
571.6778784881
 20
-50.5005298861
 10
570.0117451845
 20
-49.3138095131
 10
568.3342693897
 20
-48.3454233494
 10
566.6681360861
 20
-47.6084671568
 10
565.0358768685
 20
-47.1129070033
 10
563.4595652426
 20
-46.8654444901
 10
561.960518119
 20
-46.869426123
 10
560.5590075385
 20
-47.1247980573
 10
559.2739865274
 20
-47.6281068258
 10
558.1228327905
 20
-48.3725460406
 10
557.1211137073
 20
-49.3480484386
 10
556.2823758099
 20
-50.5414220231
 10
555.6179615896
 20
-51.9365284638
 10
555.1368561088
 20
-53.5145013393
 10
554.845565494
 20
-55.2540012734
 10
554.7480289509
 20
-57.1315045136
 10
554.845565494
 20
-59.1216210495
 10
555.1368561088
 20
-61.1974379688
 10
555.6179615896
 20
-63.3308834087
 10
556.2823758099
 20
-65.4931061797
 10
557.1211137073
 20
-67.6548659279
 10
558.1228327905
 20
-69.7869285613
 10
559.2739865274
 20
-71.8604615902
 10
560.5590075385
 20
-73.8474240376
 10
561.960518119
 20
-75.7209456449
 10
563.4595652426
 20
-77.4556902463
 10
565.0358768685
 20
-79.0281983972
 10
566.6681360861
 20
-80.4172046223
 10
568.3342693897
 20
-81.6039249954
 10
570.0117451845
 20
-82.572311159
 10
571.6778784881
 20
-83.3092673517
 10
573.3101377057
 20
-83.8048275051
 10
574.8864493316
 20
-84.0522900184
 10
576.3854964552
 20
-84.0483083854
 10
577.7870070357
 20
-83.7929364511
 10
579.0720280467
 20
-83.2896276827
 10
580.2231817836
 20
-82.5451884678
 10
581.2249008669
 20
-81.5696860699
 10
582.0636387643
 20
-80.3763124853
 10
582.7280529846
 20
-78.9812060446
 10
583.2091584654
 20
-77.4032331691
 10
583.5004490802
 20
-75.663733235
 10
583.5979856233
 20
-73.7862299948
  0
LWPOLYLINE
  5
CA
330
1F
100
AcDbEntity
  8
0
  6
Continuous
 62
     7
370
    25
100
AcDbPolyline
 90
       61
 70
   128
 43
0.0
 10
586.8506768168
 20
-75.663968652
 10
586.7538366934
 20
-73.4742701322
 10
586.4643773241
 20
-71.1967531812
 10
585.9854700862
 20
-68.8563707512
 10
585.3223619876
 20
-66.4787645619
 10
584.4823181795
 20
-64.0899841643
 10
583.4745423575
 20
-61.7162015363
 10
582.3100759246
 20
-59.3834243371
 10
581.0016770185
 20
-57.1172109619
 10
579.5636807315
 20
-54.9423905186
 10
578.0118420519
 20
-52.8827907951
 10
576.363163249
 20
-50.9609771971
 10
574.6357075927
 20
-49.1980055163
 10
572.8484014487
 20
-47.6131912396
 10
571.0208269172
 20
-46.2238979238
 10
569.1730072871
 20
-45.0453469571
 10
567.325187657
 20
-44.0904507906
 10
565.4976131255
 20
-43.3696714665
 10
563.7103069815
 20
-42.8909059939
 10
561.9828513252
 20
-42.6593998275
 10
560.3341725223
 20
-42.6776893973
 10
558.7823338427
 20
-42.9455743191
 10
557.3443375557
 20
-43.4601195894
 10
556.0359386496
 20
-44.2156877426
 10
554.8714722166
 20
-45.2040006161
 10
553.8636963947
 20
-46.414230047
 10
553.0236525866
 20
-47.8331165085
 10
552.360544488
 20
-49.4451143836
 10
551.8816372501
 20
-51.2325622862
 10
551.5921778808
 20
-53.1758765631
 10
551.4953377574
 20
-55.2537658564
 10
551.5921778808
 20
-57.4434643762
 10
551.8816372501
 20
-59.7209813273
 10
552.360544488
 20
-62.0613637572
 10
553.0236525866
 20
-64.4389699465
 10
553.8636963947
 20
-66.8277503441
 10
554.8714722166
 20
-69.2015329721
 10
556.0359386496
 20
-71.5343101713
 10
557.3443375557
 20
-73.8005235466
 10
558.7823338427
 20
-75.9753439899
 10
560.3341725223
 20
-78.0349437133
 10
561.9828513252
 20
-79.9567573114
 10
563.7103069815
 20
-81.7197289921
 10
565.4976131255
 20
-83.3045432688
 10
567.325187657
 20
-84.6938365847
 10
569.1730072871
 20
-85.8723875514
 10
571.0208269172
 20
-86.8272837179
 10
572.8484014487
 20
-87.548063042
 10
574.6357075927
 20
-88.0268285146
 10
576.363163249
 20
-88.258334681
 10
578.0118420519
 20
-88.2400451111
 10
579.5636807315
 20
-87.9721601894
 10
581.0016770185
 20
-87.4576149191
 10
582.3100759246
 20
-86.7020467658
 10
583.4745423575
 20
-85.7137338924
 10
584.4823181795
 20
-84.5035044615
 10
585.3223619876
 20
-83.084618
 10
585.9854700862
 20
-81.4726201249
 10
586.4643773241
 20
-79.6851722222
 10
586.7538366934
 20
-77.7418579453
 10
586.8506768168
 20
-75.663968652
  0
ENDSEC
  0
SECTION
  2
OBJECTS
  0
DICTIONARY
  5
C
330
0
100
AcDbDictionary
281
     1
  3
ACAD_GROUP
350
D
  3
ACAD_LAYOUT
350
1A
  3
ACAD_MLINESTYLE
350
17
  3
ACAD_PLOTSETTINGS
350
19
  3
ACAD_PLOTSTYLENAME
350
E
  3
ACAD_SCALELIST
350
47
  0
DICTIONARY
  5
D
102
{ACAD_REACTORS
330
C
102
}
330
C
100
AcDbDictionary
281
     1
  0
DICTIONARY
  5
1A
102
{ACAD_REACTORS
330
C
102
}
330
C
100
AcDbDictionary
281
     1
  3
Layout1
350
1E
  3
Layout2
350
26
  3
Model
350
22
  0
DICTIONARY
  5
17
102
{ACAD_REACTORS
330
C
102
}
330
C
100
AcDbDictionary
281
     1
  3
Standard
350
18
  0
DICTIONARY
  5
19
102
{ACAD_REACTORS
330
C
102
}
330
C
100
AcDbDictionary
281
     1
  0
ACDBDICTIONARYWDFLT
  5
E
102
{ACAD_REACTORS
330
C
102
}
330
C
100
AcDbDictionary
281
     1
  3
Normal
350
F
100
AcDbDictionaryWithDefault
340
F
  0
DICTIONARY
  5
47
102
{ACAD_REACTORS
330
C
102
}
330
C
100
AcDbDictionary
281
     1
  3
A0
350
48
  3
A1
350
49
  3
A2
350
4A
  3
A3
350
4B
  3
A4
350
4C
  3
A5
350
4D
  3
A6
350
4E
  3
A7
350
4F
  3
A8
350
50
  3
A9
350
51
  3
B0
350
52
  3
B1
350
53
  3
B2
350
54
  3
B3
350
55
  3
B4
350
56
  3
B5
350
57
  3
B6
350
58
  3
B7
350
59
  3
B8
350
5A
  3
B9
350
5B
  3
C0
350
5C
  3
C1
350
5D
  3
C2
350
5E
  3
C3
350
5F
  3
C4
350
60
  3
C5
350
61
  3
C6
350
62
  3
C7
350
63
  3
C8
350
64
  3
C9
350
65
  3
D0
350
66
  3
D1
350
67
  3
D2
350
68
  0
LAYOUT
  5
1E
102
{ACAD_REACTORS
330
1A
102
}
330
1A
100
AcDbPlotSettings
  1

  2
none_device
  4

  6

 40
0.0
 41
0.0
 42
0.0
 43
0.0
 44
0.0
 45
0.0
 46
0.0
 47
0.0
 48
0.0
 49
0.0
140
0.0
141
0.0
142
1.0
143
1.0
 70
   688
 72
     1
 73
     0
 74
     5
  7

 75
    16
147
1.0
148
0.0
149
0.0
100
AcDbLayout
  1
Layout1
 70
     1
 71
     1
 10
0.0
 20
0.0
 11
420.0
 21
297.0
 12
0.0
 22
0.0
 32
0.0
 14
1.0000000000E+20
 24
1.0000000000E+20
 34
1.0000000000E+20
 15
-1.0000000000E+20
 25
-1.0000000000E+20
 35
-1.0000000000E+20
146
0.0
 13
0.0
 23
0.0
 33
0.0
 16
1.0
 26
0.0
 36
0.0
 17
0.0
 27
1.0
 37
0.0
 76
     0
330
1B
  0
LAYOUT
  5
26
102
{ACAD_REACTORS
330
1A
102
}
330
1A
100
AcDbPlotSettings
  1

  2
none_device
  4

  6

 40
0.0
 41
0.0
 42
0.0
 43
0.0
 44
0.0
 45
0.0
 46
0.0
 47
0.0
 48
0.0
 49
0.0
140
0.0
141
0.0
142
1.0
143
1.0
 70
   688
 72
     1
 73
     0
 74
     5
  7

 75
    16
147
1.0
148
0.0
149
0.0
100
AcDbLayout
  1
Layout2
 70
     1
 71
     2
 10
0.0
 20
0.0
 11
0.0
 21
0.0
 12
0.0
 22
0.0
 32
0.0
 14
0.0
 24
0.0
 34
0.0
 15
0.0
 25
0.0
 35
0.0
146
0.0
 13
0.0
 23
0.0
 33
0.0
 16
1.0
 26
0.0
 36
0.0
 17
0.0
 27
1.0
 37
0.0
 76
     0
330
23
  0
LAYOUT
  5
22
102
{ACAD_REACTORS
330
1A
102
}
330
1A
100
AcDbPlotSettings
  1

  2
none_device
  4
Letter_(8.50_x_11.00_Inches)
  6

 40
6.35
 41
6.35
 42
6.35000508
 43
6.35000508
 44
215.9
 45
279.4
 46
0.0
 47
0.0
 48
0.0
 49
0.0
140
0.0
141
0.0
142
1.0
143
1.0
 70
  1712
 72
     1
 73
     0
 74
     0
  7

 75
     0
147
1.0
148
0.0
149
0.0
100
AcDbLayout
  1
Model
 70
     1
 71
     0
 10
0.0
 20
0.0
 11
279.4
 21
215.9
 12
0.0
 22
0.0
 32
0.0
 14
0.0
 24
0.0
 34
0.0
 15
279.4
 25
215.9
 35
0.0
146
0.0
 13
0.0
 23
0.0
 33
0.0
 16
1.0
 26
0.0
 36
0.0
 17
0.0
 27
1.0
 37
0.0
 76
     0
330
1F
331
29
  0
MLINESTYLE
  5
18
102
{ACAD_REACTORS
330
17
102
}
330
17
100
AcDbMlineStyle
  2
Standard
 70
     0
  3

 62
   256
 51
90.0
 52
90.0
 71
     2
 49
0.5
 62
   256
  6
BYLAYER
 49
-0.5
 62
   256
  6
BYLAYER
  0
ACDBPLACEHOLDER
  5
F
102
{ACAD_REACTORS
330
E
102
}
330
E
  0
SCALE
  5
48
102
{ACAD_REACTORS
330
47
102
}
330
47
100
AcDbScale
 70
     0
300
1:1
140
1.0
141
1.0
290
     1
  0
SCALE
  5
49
102
{ACAD_REACTORS
330
47
102
}
330
47
100
AcDbScale
 70
     0
300
1:2
140
1.0
141
2.0
290
     0
  0
SCALE
  5
4A
102
{ACAD_REACTORS
330
47
102
}
330
47
100
AcDbScale
 70
     0
300
1:4
140
1.0
141
4.0
290
     0
  0
SCALE
  5
4B
102
{ACAD_REACTORS
330
47
102
}
330
47
100
AcDbScale
 70
     0
300
1:5
140
1.0
141
5.0
290
     0
  0
SCALE
  5
4C
102
{ACAD_REACTORS
330
47
102
}
330
47
100
AcDbScale
 70
     0
300
1:8
140
1.0
141
8.0
290
     0
  0
SCALE
  5
4D
102
{ACAD_REACTORS
330
47
102
}
330
47
100
AcDbScale
 70
     0
300
1:10
140
1.0
141
10.0
290
     0
  0
SCALE
  5
4E
102
{ACAD_REACTORS
330
47
102
}
330
47
100
AcDbScale
 70
     0
300
1:16
140
1.0
141
16.0
290
     0
  0
SCALE
  5
4F
102
{ACAD_REACTORS
330
47
102
}
330
47
100
AcDbScale
 70
     0
300
1:20
140
1.0
141
20.0
290
     0
  0
SCALE
  5
50
102
{ACAD_REACTORS
330
47
102
}
330
47
100
AcDbScale
 70
     0
300
1:30
140
1.0
141
30.0
290
     0
  0
SCALE
  5
51
102
{ACAD_REACTORS
330
47
102
}
330
47
100
AcDbScale
 70
     0
300
1:40
140
1.0
141
40.0
290
     0
  0
SCALE
  5
52
102
{ACAD_REACTORS
330
47
102
}
330
47
100
AcDbScale
 70
     0
300
1:50
140
1.0
141
50.0
290
     0
  0
SCALE
  5
53
102
{ACAD_REACTORS
330
47
102
}
330
47
100
AcDbScale
 70
     0
300
1:100
140
1.0
141
100.0
290
     0
  0
SCALE
  5
54
102
{ACAD_REACTORS
330
47
102
}
330
47
100
AcDbScale
 70
     0
300
2:1
140
2.0
141
1.0
290
     0
  0
SCALE
  5
55
102
{ACAD_REACTORS
330
47
102
}
330
47
100
AcDbScale
 70
     0
300
4:1
140
4.0
141
1.0
290
     0
  0
SCALE
  5
56
102
{ACAD_REACTORS
330
47
102
}
330
47
100
AcDbScale
 70
     0
300
8:1
140
8.0
141
1.0
290
     0
  0
SCALE
  5
57
102
{ACAD_REACTORS
330
47
102
}
330
47
100
AcDbScale
 70
     0
300
10:1
140
10.0
141
1.0
290
     0
  0
SCALE
  5
58
102
{ACAD_REACTORS
330
47
102
}
330
47
100
AcDbScale
 70
     0
300
100:1
140
100.0
141
1.0
290
     0
  0
SCALE
  5
59
102
{ACAD_REACTORS
330
47
102
}
330
47
100
AcDbScale
 70
     0
300
1/128" = 1'-0"
140
0.0078125
141
12.0
290
     0
  0
SCALE
  5
5A
102
{ACAD_REACTORS
330
47
102
}
330
47
100
AcDbScale
 70
     0
300
1/64" = 1'-0"
140
0.015625
141
12.0
290
     0
  0
SCALE
  5
5B
102
{ACAD_REACTORS
330
47
102
}
330
47
100
AcDbScale
 70
     0
300
1/32" = 1'-0"
140
0.03125
141
12.0
290
     0
  0
SCALE
  5
5C
102
{ACAD_REACTORS
330
47
102
}
330
47
100
AcDbScale
 70
     0
300
1/16" = 1'-0"
140
0.0625
141
12.0
290
     0
  0
SCALE
  5
5D
102
{ACAD_REACTORS
330
47
102
}
330
47
100
AcDbScale
 70
     0
300
3/32" = 1'-0"
140
0.09375
141
12.0
290
     0
  0
SCALE
  5
5E
102
{ACAD_REACTORS
330
47
102
}
330
47
100
AcDbScale
 70
     0
300
1/8" = 1'-0"
140
0.125
141
12.0
290
     0
  0
SCALE
  5
5F
102
{ACAD_REACTORS
330
47
102
}
330
47
100
AcDbScale
 70
     0
300
3/16" = 1'-0"
140
0.1875
141
12.0
290
     0
  0
SCALE
  5
60
102
{ACAD_REACTORS
330
47
102
}
330
47
100
AcDbScale
 70
     0
300
1/4" = 1'-0"
140
0.25
141
12.0
290
     0
  0
SCALE
  5
61
102
{ACAD_REACTORS
330
47
102
}
330
47
100
AcDbScale
 70
     0
300
3/8" = 1'-0"
140
0.375
141
12.0
290
     0
  0
SCALE
  5
62
102
{ACAD_REACTORS
330
47
102
}
330
47
100
AcDbScale
 70
     0
300
1/2" = 1'-0"
140
0.5
141
12.0
290
     0
  0
SCALE
  5
63
102
{ACAD_REACTORS
330
47
102
}
330
47
100
AcDbScale
 70
     0
300
3/4" = 1'-0"
140
0.75
141
12.0
290
     0
  0
SCALE
  5
64
102
{ACAD_REACTORS
330
47
102
}
330
47
100
AcDbScale
 70
     0
300
1" = 1'-0"
140
1.0
141
12.0
290
     0
  0
SCALE
  5
65
102
{ACAD_REACTORS
330
47
102
}
330
47
100
AcDbScale
 70
     0
300
1-1/2" = 1'-0"
140
1.5
141
12.0
290
     0
  0
SCALE
  5
66
102
{ACAD_REACTORS
330
47
102
}
330
47
100
AcDbScale
 70
     0
300
3" = 1'-0"
140
3.0
141
12.0
290
     0
  0
SCALE
  5
67
102
{ACAD_REACTORS
330
47
102
}
330
47
100
AcDbScale
 70
     0
300
6" = 1'-0"
140
6.0
141
12.0
290
     0
  0
SCALE
  5
68
102
{ACAD_REACTORS
330
47
102
}
330
47
100
AcDbScale
 70
     0
300
1'-0" = 1'-0"
140
12.0
141
12.0
290
     0
  0
ENDSEC
  0
EOF
